home

intro 
A|----------0-----------0---2-----------0-------0-------0-------0-------|
E|--0---0-------2---0-------3-------------2-------2-------2-------2-----|
C|--0---------2---------------------2-------2-------2-------2-----------|
G|--------0---------0-----------------0-------0-------0-------0---------|
                                                                     


A|----------0-----------0---2-----------0-------0-------0-------0-------|
E|--0---0-------2---0-------3-------------2-------2-------2-------2-----|
C|--0---------2---------------------2-------2-------2-------2-----------|
G|--------0---------0-----------------0-------0-------0-------0---------|
                                                                     


A|----------0-----------0---2-----------0-------0---2---0---2---0-------0-------0------|
E|--0---0-------2---0-------3-------------2-------2-------2-------2-0-----2-0-----2----|
C|--0---------2---------------------2-------2------------------------------------------|
G|--------0---------0-----------------0-------0-------0-------0-------0-------0--------|


(singing rhythm notated for my convenience)
x  x  -  x  | -  -  x  x  | -  -  x  x  | -  x  -  - 
winter   makes      the most      of all     our

A|--------3-------3-------3-------3-------
E|----0-------0-------0-------0-------------
C|------0-------0-------0-------0----------
G|--2-------2-------2-------2---------------



compromising intellects

A|--------5-------5-------5-------5-------------------------------------------------
E|------2-------2-------2-------2---------------------------------------
C|--2-------2-------2-------2------------------------------------
G|----0-------0-------0-------0-----------------------------------



throws us to the safety of our 

A|---------2-------2-------2-------2-------------
E|-------3-------3-------3-------3-------
C|-----2-------2-------2-------2---------
G|---0-------0-------0-------0-----------



clothes

A|-----------3-------3-------3-------3---
E|---------0-------0-------0-------0------
C|-----0-------0-------0-------0--------
G|-------0-------0-------0-------0--------



coupled up with strangers in the

A|--------3-------3-------3-------3-------
E|----0-------0-------0-------0-------------
C|------0-------0-------0-------0----------
G|--2-------2-------2-------2---------------


front yard smoking cigarettes

A|--------5-------5-------5-------5-------------------------------------------------
E|------2-------2-------2-------2---------------------------------------
C|--2-------2-------2-------2------------------------------------
G|----0-------0-------0-------0-----------------------------------



shiver as our cherries burn in

A|---------2-------2-------2-------2-------------
E|-------3-------3-------3-------3-------
C|-----2-------2-------2-------2---------
G|---0-------0-------0-------0-----------



smoke

A|-----------3-------3-------3-------3---
E|---------0-------0-------0-------0------
C|-----0-------0-------0-------0--------
G|-------0-------0-------0-------0--------



nothing feels like home anymore

A|----------0-----0-----2-------2-------0-------0---2---0---2---0-------0-------0------|
E|--0---0-------2---0-------0-------------2-------2-------2-------2-0-----2-0-----2----|
C|----0-------2---------------------2-------2------------------------------------------|
G|--------0-----------0---0---0---0---0-------0-------0-------0-------0-------0--------|